999
Example DXF output from Android DXFCanvas
0
SECTION
2
HEADER
0
ENDSEC
0
SECTION
2
CLASSES
0
ENDSEC
0
SECTION
2
TABLES
0
ENDSEC
0
SECTION
2
BLOCKS
0
ENDSEC
0
SECTION
2
ENTITIES
0
LINE
10
0.0
20
0.0
30
0.0
11
384.14008
21
-1522.3129
31
0.0
62
3
0
ELLIPSE
10
384.14008
20
-1522.3129
30
0.0
11
149.42921
21
13.07336
31
0.0
40
0.3333333079064402
41
2.6179937723087745
42
-1.0471979972637702
62
3
0
LINE
10
384.14008
20
-1522.3129
30
0.0
11
462.62863
21
-1558.9127
31
0.0
62
3
0
LINE
10
384.14008
20
-1522.3129
30
0.0
11
252.5517
21
-1508.7299
31
0.0
62
3
0
LINE
10
0.0
20
0.0
30
0.0
11
515.3566
21
-1483.04
31
0.0
62
3
0
ELLIPSE
10
515.3566
20
-1483.04
30
0.0
11
147.72116
21
26.047224
31
0.0
40
0.33333335874629855
41
2.6179941713306523
42
-1.0471969012522235
62
3
0
LINE
10
515.3566
20
-1483.04
30
0.0
11
596.7364
21
-1512.6598
31
0.0
62
3
0
LINE
10
515.3566
20
-1483.04
30
0.0
11
383.0851
21
-1480.9774
31
0.0
62
3
0
LINE
10
0.0
20
0.0
30
0.0
11
642.651
21
-1432.4803
31
0.0
62
3
0
ELLIPSE
10
642.651
20
-1432.4803
30
0.0
11
144.88889
21
38.822857
31
0.0
40
0.33333333333333337
41
2.6179951954789016
42
-1.0471967435293228
62
3
0
LINE
10
642.651
20
-1432.4803
30
0.0
11
726.3026
21
-1454.8947
31
0.0
62
3
0
LINE
10
642.651
20
-1432.4803
30
0.0
11
510.70306
21
-1441.9539
31
0.0
62
3
0
LINE
10
0.0
20
0.0
30
0.0
11
765.0544
21
-1371.0186
31
0.0
62
3
0
ELLIPSE
10
765.0544
20
-1371.0187
30
0.0
11
140.9539
21
51.303024
31
0.0
40
0.33333333188366315
41
2.617993635658321
42
-1.0471968271852088
62
3
0
LINE
10
765.0544
20
-1371.0187
30
0.0
11
850.3413
21
-1386.057
31
0.0
62
3
0
LINE
10
765.0544
20
-1371.0187
30
0.0
11
634.43427
21
-1391.956
31
0.0
62
3
0
LINE
10
0.0
20
0.0
30
0.0
11
881.63525
21
-1299.1227
31
0.0
62
3
0
ELLIPSE
10
881.63525
20
-1299.1227
30
0.0
11
135.94618
21
63.392742
31
0.0
40
0.3333333374336203
41
2.617992567882178
42
-1.047196817236319
62
3
0
LINE
10
881.63525
20
-1299.1227
30
0.0
11
967.90826
21
-1306.6705
31
0.0
62
3
0
LINE
10
881.63525
20
-1299.1227
30
0.0
11
753.337
21
-1331.3646
31
0.0
62
3
0
LINE
10
0.0
20
0.0
30
0.0
11
991.50635
21
-1217.3395
31
0.0
62
3
0
ELLIPSE
10
991.50635
20
-1217.3395
30
0.0
11
129.90382
21
75.0
31
0.0
40
0.33333334801610925
41
2.6179940226302576
42
-1.0471989078961654
62
3
0
LINE
10
991.50635
20
-1217.3395
30
0.0
11
1078.1089
21
-1217.3396
31
0.0
62
3
0
LINE
10
991.50635
20
-1217.3395
30
0.0
11
866.50635
21
-1260.6407
31
0.0
62
3
0
LINE
10
0.0
20
0.0
30
0.0
11
1093.8315
21
-1126.2917
31
0.0
62
3
0
ELLIPSE
10
1093.8315
20
-1126.2917
30
0.0
11
122.872826
21
86.03647
31
0.0
40
0.3333333215270292
41
2.6179928267183286
42
-1.0471981852704146
62
3
0
LINE
10
1093.8315
20
-1126.2917
30
0.0
11
1180.1045
21
-1118.7439
31
0.0
62
3
0
LINE
10
1093.8315
20
-1126.2917
30
0.0
11
973.0812
21
-1180.3226
31
0.0
62
3
0
LINE
10
0.0
20
0.0
30
0.0
11
1187.832
21
-1026.6722
31
0.0
62
3
0
ELLIPSE
10
1187.832
20
-1026.6722
30
0.0
11
114.90669
21
96.418144
31
0.0
40
0.33333333333333337
41
2.6179946490721124
42
-1.0471977475783874
62
3
0
LINE
10
1187.832
20
-1026.6722
30
0.0
11
1273.1188
21
-1011.6339
31
0.0
62
3
0
LINE
10
1187.832
20
-1026.6722
30
0.0
11
1072.2502
21
-1091.0217
31
0.0
62
3
0
LINE
10
0.0
20
0.0
30
0.0
11
200.0
21
-200.0
31
0.0
62
5
0
ELLIPSE
10
200.0
20
-200.0
30
0.0
11
100.0
21
0.0
31
0.0
40
1.0
41
3.141592653589793
42
-0.7853981633974483
62
5
0
LINE
10
200.0
20
-200.0
30
0.0
11
270.7107
21
-270.7107
31
0.0
62
5
0
LINE
10
200.0
20
-200.0
30
0.0
11
100.0
21
-200.0
31
0.0
62
5
0
LINE
10
0.0
20
0.0
30
0.0
11
240.0
21
-200.0
31
0.0
62
5
0
ELLIPSE
10
240.0
20
-200.0
30
0.0
11
81.92958
21
-74.14525
31
0.0
40
0.8190024875775822
41
3.97682512320463
42
0.04983438434263956
62
5
0
LINE
10
240.0
20
-200.0
30
0.0
11
324.85284
21
-270.7107
31
0.0
62
5
0
LINE
10
240.0
20
-200.0
30
0.0
11
140.0
21
-200.0
31
0.0
62
5
0
LINE
10
0.0
20
0.0
30
0.0
11
280.0
21
-200.0
31
0.0
62
5
0
ELLIPSE
10
280.0
20
-200.0
30
0.0
11
94.33258
21
-77.33421
31
0.0
40
0.6720784389125772
41
4.025688550341181
42
0.09869766790211595
62
5
0
LINE
10
280.0
20
-200.0
30
0.0
11
378.99496
21
-270.7107
31
0.0
62
5
0
LINE
10
280.0
20
-200.0
30
0.0
11
180.0
21
-200.0
31
0.0
62
5
0
LINE
10
0.0
20
0.0
30
0.0
11
320.0
21
-200.0
31
0.0
62
5
0
ELLIPSE
10
320.0
20
-200.0
30
0.0
11
107.83063
21
-80.229294
31
0.0
40
0.5535815892385069
41
4.072719266304246
42
0.1457284122068266
62
5
0
LINE
10
320.0
20
-200.0
30
0.0
11
433.13712
21
-270.7107
31
0.0
62
5
0
LINE
10
320.0
20
-200.0
30
0.0
11
220.0
21
-200.0
31
0.0
62
5
0
LINE
10
0.0
20
0.0
30
0.0
11
360.0
21
-200.0
31
0.0
62
5
0
ELLIPSE
10
360.0
20
-200.0
30
0.0
11
122.30826
21
-82.806725
31
0.0
40
0.45837363085848265
41
4.117244064767585
42
0.19025327860112778
62
5
0
LINE
10
360.0
20
-200.0
30
0.0
11
487.27924
21
-270.7107
31
0.0
62
5
0
LINE
10
360.0
20
-200.0
30
0.0
11
260.0
21
-200.0
31
0.0
62
5
0
LINE
10
0.0
20
0.0
30
0.0
11
400.0
21
-200.0
31
0.0
62
5
0
ELLIPSE
10
400.0
20
-200.0
30
0.0
11
137.63818
21
-85.06508
31
0.0
40
0.38196601125010515
41
4.158814675830252
42
0.23182391861576954
62
5
0
LINE
10
400.0
20
-200.0
30
0.0
11
541.4214
21
-270.7107
31
0.0
62
5
0
LINE
10
400.0
20
-200.0
30
0.0
11
300.0
21
-200.0
31
0.0
62
5
0
LINE
10
0.0
20
0.0
30
0.0
11
440.0
21
-200.0
31
0.0
62
5
0
ELLIPSE
10
440.0
20
-200.0
30
0.0
11
153.69388
21
-87.01999
31
0.0
40
0.3205715242648518
41
4.197200509896719
42
0.27020958311402143
62
5
0
LINE
10
440.0
20
-200.0
30
0.0
11
595.56354
21
-270.7107
31
0.0
62
5
0
LINE
10
440.0
20
-200.0
30
0.0
11
340.0
21
-200.0
31
0.0
62
5
0
LINE
10
0.0
20
0.0
30
0.0
11
480.00003
21
-200.0
31
0.0
62
5
0
ELLIPSE
10
480.00003
20
-200.0
30
0.0
11
170.35806
21
-88.69787
31
0.0
40
0.27108217991068745
41
4.232353845491276
42
0.3053628623056049
62
5
0
LINE
10
480.00003
20
-200.0
30
0.0
11
649.7057
21
-270.7107
31
0.0
62
5
0
LINE
10
480.00003
20
-200.0
30
0.0
11
380.00003
21
-200.0
31
0.0
62
5
0
LINE
10
0.0
20
0.0
30
0.0
11
100.0
21
-100.0
31
0.0
62
4
0
LWPOLYLINE
90
4
70
1
10
100.0
20
-100.0
30
0.0
10
300.0
20
-100.0
30
0.0
10
300.0
20
-300.0
30
0.0
10
100.0
20
-300.0
30
0.0
62
4
0
LINE
10
0.0
20
0.0
30
0.0
11
110.0
21
-120.0
31
0.0
62
4
0
LWPOLYLINE
90
4
70
1
10
110.0
20
-120.0
30
0.0
10
310.0
20
-160.0
30
0.0
10
330.0
20
-360.0
30
0.0
10
130.0
20
-320.0
30
0.0
62
4
0
LINE
10
0.0
20
0.0
30
0.0
11
122.0
21
-142.0
31
0.0
62
4
0
LWPOLYLINE
90
4
70
1
10
122.0
20
-142.0
30
0.0
10
326.0
20
-222.0
30
0.0
10
366.0
20
-426.0
30
0.0
10
162.0
20
-346.0
30
0.0
62
4
0
LINE
10
0.0
20
0.0
30
0.0
11
136.2
21
-166.4
31
0.0
62
4
0
LWPOLYLINE
90
4
70
1
10
136.2
20
-166.4
30
0.0
10
348.19998
20
-287.2
30
0.0
10
408.59998
20
-499.19998
30
0.0
10
196.6
20
-378.4
30
0.0
62
4
0
LINE
10
0.0
20
0.0
30
0.0
11
152.84
21
-193.64
31
0.0
62
4
0
LWPOLYLINE
90
4
70
1
10
152.84
20
-193.64
30
0.0
10
376.91998
20
-356.84003
30
0.0
10
458.52
20
-580.92
30
0.0
10
234.44
20
-417.72
30
0.0
62
4
0
LINE
10
0.0
20
0.0
30
0.0
11
172.204
21
-224.20801
31
0.0
62
4
0
LWPOLYLINE
90
4
70
1
10
172.204
20
-224.20801
30
0.0
10
412.60397
20
-432.224
30
0.0
10
516.612
20
-672.62396
30
0.0
10
276.212
20
-464.60797
30
0.0
62
4
0
LINE
10
0.0
20
0.0
30
0.0
11
194.62479
21
-258.6488
31
0.0
62
4
0
LWPOLYLINE
90
4
70
1
10
194.62479
20
-258.6488
30
0.0
10
455.82635
20
-514.7448
30
0.0
10
583.8744
20
-775.94635
30
0.0
10
322.6728
20
-519.85034
30
0.0
62
4
0
LINE
10
0.0
20
0.0
30
0.0
11
220.48967
21
-297.57376
31
0.0
62
4
0
LWPOLYLINE
90
4
70
1
10
220.48967
20
-297.57376
30
0.0
10
507.30087
20
-605.9101
30
0.0
10
661.469
20
-892.72125
30
0.0
10
374.65784
20
-584.38495
30
0.0
62
4
0
LINE
10
0.0
20
0.0
30
0.0
11
500.0
21
-200.0
31
0.0
62
1
0
ELLIPSE
10
500.0
20
-200.0
30
0.0
11
50.0
21
0.0
31
0.0
40
1.0
41
-1.5707963267948966
42
0.7853981633974483
62
1
0
LINE
10
500.0
20
-200.0
30
0.0
11
535.35535
21
-164.64465
31
0.0
62
1
0
LINE
10
500.0
20
-200.0
30
0.0
11
500.0
21
-250.0
31
0.0
62
1
0
LINE
10
0.0
20
0.0
30
0.0
11
200.0
21
-500.0
31
0.0
62
1
0
ELLIPSE
10
200.0
20
-500.0
30
0.0
11
50.0
21
0.0
31
0.0
40
1.0
41
-1.396263397982348
42
-0.34906594050273326
62
1
0
LINE
10
200.0
20
-500.0
30
0.0
11
208.6824
21
-549.24036
31
0.0
62
1
0
LINE
10
200.0
20
-500.0
30
0.0
11
246.98463
21
-517.101
31
0.0
62
1
0
LINE
10
0.0
20
0.0
30
0.0
11
550.0
21
240.00002
31
0.0
62
1
0
ELLIPSE
10
550.0
20
240.00002
30
0.0
11
3.3677789E-15
21
60.000004
31
0.0
40
0.9166666083865732
41
3.926990619906255
42
-0.0
62
1
0
LINE
10
550.0
20
240.00002
30
0.0
11
588.89087
21
197.5736
31
0.0
62
1
0
LINE
10
550.0
20
240.00002
30
0.0
11
550.0
21
300.0
31
0.0
62
1
0
LINE
10
0.0
20
0.0
30
0.0
11
220.0
21
600.0
31
0.0
62
1
0
ELLIPSE
10
220.0
20
600.0
30
0.0
11
3.3677789E-15
21
60.000004
31
0.0
40
0.9166666083865732
41
-1.2217300718078505
42
-0.17453290435624594
62
1
0
LINE
10
220.0
20
600.0
30
0.0
11
229.55064
21
659.08844
31
0.0
62
1
0
LINE
10
220.0
20
600.0
30
0.0
11
271.6831
21
620.52124
31
0.0
62
1
0
LINE
10
0.0
20
0.0
30
0.0
11
605.0
21
-288.0
31
0.0
62
1
0
ELLIPSE
10
605.0
20
-288.0
30
0.0
11
3.7045566E-15
21
-72.0
31
0.0
40
0.8402777777777778
41
0.0
42
2.356194486476921
62
1
0
LINE
10
605.0
20
-288.0
30
0.0
11
647.77997
21
-237.0883
31
0.0
62
1
0
LINE
10
605.0
20
-288.0
30
0.0
11
605.0
21
-360.0
31
0.0
62
1
0
LINE
10
0.0
20
0.0
30
0.0
11
242.0
21
-720.0
31
0.0
62
1
0
ELLIPSE
10
242.0
20
-720.0
30
0.0
11
3.7045566E-15
21
-72.0
31
0.0
40
0.8402777777777778
41
0.17453311702556806
42
1.2217300168695822
62
1
0
LINE
10
242.0
20
-720.0
30
0.0
11
252.50572
21
-790.9061
31
0.0
62
1
0
LINE
10
242.0
20
-720.0
30
0.0
11
298.8514
21
-744.6255
31
0.0
62
1
0
LINE
10
0.0
20
0.0
30
0.0
11
665.50006
21
345.60004
31
0.0
62
1
0
ELLIPSE
10
665.50006
20
345.60004
30
0.0
11
4.0750124E-15
21
86.40001
31
0.0
40
0.770254583331788
41
3.926990895453921
42
-0.0
62
1
0
LINE
10
665.50006
20
345.60004
30
0.0
11
712.55804
21
284.50598
31
0.0
62
1
0
LINE
10
665.50006
20
345.60004
30
0.0
11
665.50006
21
432.00003
31
0.0
62
1
0
LINE
10
0.0
20
0.0
30
0.0
11
266.2
21
864.00006
31
0.0
62
1
0
ELLIPSE
10
266.2
20
864.00006
30
0.0
11
4.0750124E-15
21
86.40001
31
0.0
40
0.770254583331788
41
-1.221729930870037
42
-0.17453285829859308
62
1
0
LINE
10
266.2
20
864.00006
30
0.0
11
277.7563
21
949.0874
31
0.0
62
1
0
LINE
10
266.2
20
864.00006
30
0.0
11
328.73657
21
893.55066
31
0.0
62
1
0
LINE
10
0.0
20
0.0
30
0.0
11
732.05005
21
-414.72006
31
0.0
62
1
0
ELLIPSE
10
732.05005
20
-414.72006
30
0.0
11
4.482514E-15
21
-103.680016
31
0.0
40
0.7060667290822865
41
0.0
42
2.356194313426787
62
1
0
LINE
10
732.05005
20
-414.72006
30
0.0
11
783.81384
21
-341.4072
31
0.0
62
1
0
LINE
10
732.05005
20
-414.72006
30
0.0
11
732.05005
21
-518.4001
31
0.0
62
1
0
LINE
10
0.0
20
0.0
30
0.0
11
292.82004
21
-1036.8002
31
0.0
62
1
0
ELLIPSE
10
292.82004
20
-1036.8002
30
0.0
11
4.482514E-15
21
-103.680016
31
0.0
40
0.7060667290822865
41
0.17453272793314065
42
1.2217300450779238
62
1
0
LINE
10
292.82004
20
-1036.8002
30
0.0
11
305.53192
21
-1138.9049
31
0.0
62
1
0
LINE
10
292.82004
20
-1036.8002
30
0.0
11
361.61023
21
-1072.2609
31
0.0
62
1
0
LINE
10
0.0
20
0.0
30
0.0
11
805.25507
21
497.66406
31
0.0
62
1
0
ELLIPSE
10
805.25507
20
497.66406
30
0.0
11
4.930765E-15
21
124.416016
31
0.0
40
0.6472278079425755
41
3.926990620570893
42
-0.0
62
1
0
LINE
10
805.25507
20
497.66406
30
0.0
11
862.1952
21
409.68863
31
0.0
62
1
0
LINE
10
805.25507
20
497.66406
30
0.0
11
805.25507
21
622.0801
31
0.0
62
1
0
LINE
10
0.0
20
0.0
30
0.0
11
322.10202
21
1244.1602
31
0.0
62
1
0
ELLIPSE
10
322.10202
20
1244.1602
30
0.0
11
4.930765E-15
21
124.416016
31
0.0
40
0.6472278079425755
41
-1.2217299130004902
42
-0.1745328824485084
62
1
0
LINE
10
322.10202
20
1244.1602
30
0.0
11
336.0851
21
1366.6859
31
0.0
62
1
0
LINE
10
322.10202
20
1244.1602
30
0.0
11
397.77124
21
1286.713
31
0.0
62
1
0
LINE
10
0.0
20
0.0
30
0.0
11
885.7806
21
-597.1969
31
0.0
62
1
0
ELLIPSE
10
885.7806
20
-597.1969
30
0.0
11
5.423842E-15
21
-149.29922
31
0.0
40
0.5932921381363986
41
0.0
42
2.3561944086749165
62
1
0
LINE
10
885.7806
20
-597.1969
30
0.0
11
948.41473
21
-491.6264
31
0.0
62
1
0
LINE
10
885.7806
20
-597.1969
30
0.0
11
885.7806
21
-746.49615
31
0.0
62
1
0
LINE
10
0.0
20
0.0
30
0.0
11
354.31223
21
-1492.9923
31
0.0
62
1
0
ELLIPSE
10
354.31223
20
-1492.9923
30
0.0
11
5.423842E-15
21
-149.29922
31
0.0
40
0.5932921381363986
41
0.17453299588434193
42
1.2217303961426076
62
1
0
LINE
10
354.31223
20
-1492.9923
30
0.0
11
369.69363
21
-1640.0232
31
0.0
62
1
0
LINE
10
354.31223
20
-1492.9923
30
0.0
11
437.54837
21
-1544.0557
31
0.0
62
1
0
LINE
10
0.0
20
0.0
30
0.0
11
974.3587
21
716.63635
31
0.0
62
1
0
ELLIPSE
10
974.3587
20
716.63635
30
0.0
11
5.9662265E-15
21
179.15909
31
0.0
40
0.5438511008510932
41
3.9269904233108175
42
-0.0
62
1
0
LINE
10
974.3587
20
716.63635
30
0.0
11
1043.2562
21
589.9517
31
0.0
62
1
0
LINE
10
974.3587
20
716.63635
30
0.0
11
974.3587
21
895.7954
31
0.0
62
1
0
LINE
10
0.0
20
0.0
30
0.0
11
389.74347
21
1791.5908
31
0.0
62
1
0
ELLIPSE
10
389.74347
20
1791.5908
30
0.0
11
5.9662265E-15
21
179.15909
31
0.0
40
0.5438511008510932
41
-1.221730625124564
42
-0.17453299468916952
62
1
0
LINE
10
389.74347
20
1791.5908
30
0.0
11
406.66302
21
1968.028
31
0.0
62
1
0
LINE
10
389.74347
20
1791.5908
30
0.0
11
481.30325
21
1852.8668
31
0.0
62
1
0
LINE
10
0.0
20
0.0
30
0.0
11
700.0
21
350.0
31
0.0
62
6
0
ELLIPSE
10
700.0
20
350.0
30
0.0
11
100.0
21
0.0
31
0.0
40
1.0
41
3.141592653589793
42
2.356194490192345
62
6
0
LINE
10
700.0
20
350.0
30
0.0
11
629.2893
21
420.7107
31
0.0
62
6
0
LINE
10
700.0
20
350.0
30
0.0
11
600.0
21
350.0
31
0.0
62
6
0
LINE
10
200.0
20
-100.0
30
0.0
11
900.0
21
250.0
31
0.0
62
6
0
ELLIPSE
10
900.0
20
250.0
30
0.0
11
100.0
21
0.0
31
0.0
40
1.0
41
3.141592653589793
42
2.356194490192345
62
6
0
LINE
10
900.0
20
250.0
30
0.0
11
829.2893
21
320.7107
31
0.0
62
6
0
LINE
10
900.0
20
250.0
30
0.0
11
800.0
21
250.0
31
0.0
62
6
0
LINE
10
400.0
20
-200.0
30
0.0
11
1100.0
21
150.0
31
0.0
62
6
0
ELLIPSE
10
1100.0
20
150.0
30
0.0
11
100.0
21
0.0
31
0.0
40
1.0
41
3.141592653589793
42
2.356194490192345
62
6
0
LINE
10
1100.0
20
150.0
30
0.0
11
1029.2893
21
220.7107
31
0.0
62
6
0
LINE
10
1100.0
20
150.0
30
0.0
11
1000.0
21
150.0
31
0.0
62
6
0
LINE
10
600.0
20
-300.0
30
0.0
11
1300.0
21
50.0
31
0.0
62
6
0
ELLIPSE
10
1300.0
20
50.0
30
0.0
11
100.0
21
0.0
31
0.0
40
1.0
41
3.141592653589793
42
2.356194490192345
62
6
0
LINE
10
1300.0
20
50.0
30
0.0
11
1229.2893
21
120.71069
31
0.0
62
6
0
LINE
10
1300.0
20
50.0
30
0.0
11
1200.0
21
50.0
31
0.0
62
6
0
LINE
10
800.0
20
-400.0
30
0.0
11
1500.0
21
-50.0
31
0.0
62
6
0
ELLIPSE
10
1500.0
20
-50.0
30
0.0
11
100.0
21
0.0
31
0.0
40
1.0
41
3.141592653589793
42
2.356194490192345
62
6
0
LINE
10
1500.0
20
-50.0
30
0.0
11
1429.2893
21
20.710693
31
0.0
62
6
0
LINE
10
1500.0
20
-50.0
30
0.0
11
1400.0
21
-50.0
31
0.0
62
6
0
LINE
10
1000.0
20
-500.0
30
0.0
11
1700.0
21
-150.0
31
0.0
62
6
0
ELLIPSE
10
1700.0
20
-150.0
30
0.0
11
100.0
21
0.0
31
0.0
40
1.0
41
3.141592653589793
42
2.356194490192345
62
6
0
LINE
10
1700.0
20
-150.0
30
0.0
11
1629.2893
21
-79.28931
31
0.0
62
6
0
LINE
10
1700.0
20
-150.0
30
0.0
11
1600.0
21
-150.0
31
0.0
62
6
0
LINE
10
1200.0
20
-600.0
30
0.0
11
1900.0
21
-250.0
31
0.0
62
6
0
ELLIPSE
10
1900.0
20
-250.0
30
0.0
11
100.0
21
0.0
31
0.0
40
1.0
41
3.141592653589793
42
2.356194490192345
62
6
0
LINE
10
1900.0
20
-250.0
30
0.0
11
1829.2893
21
-179.2893
31
0.0
62
6
0
LINE
10
1900.0
20
-250.0
30
0.0
11
1800.0
21
-250.0
31
0.0
62
6
0
LINE
10
1400.0
20
-700.0
30
0.0
11
2100.0
21
-350.0
31
0.0
62
6
0
ELLIPSE
10
2100.0
20
-350.0
30
0.0
11
100.0
21
0.0
31
0.0
40
1.0
41
3.141592653589793
42
2.356194490192345
62
6
0
LINE
10
2100.0
20
-350.0
30
0.0
11
2029.2893
21
-279.2893
31
0.0
62
6
0
LINE
10
2100.0
20
-350.0
30
0.0
11
2000.0
21
-350.0
31
0.0
62
6
0
LINE
10
100.0
20
-300.0
30
0.0
11
465.40796
21
-1202.1935
31
0.0
62
255
0
LWPOLYLINE
90
4
70
1
10
441.86206
20
-1130.5723
30
0.0
10
797.2511
20
-589.55975
30
0.0
10
844.3429
20
-732.80206
30
0.0
10
488.95383
20
-1273.8147
30
0.0
62
255
0
ELLIPSE
10
643.1025
20
-931.6872
30
0.0
11
172.24117
21
278.13446
31
0.0
40
0.17842424375672727
41
2.2074119264948893
42
0.6366166966005782
62
255
0
LINE
10
643.1025
20
-931.6872
30
0.0
11
752.10205
21
-689.7665
31
0.0
62
255
0
LINE
10
643.1025
20
-931.6872
30
0.0
11
500.80402
21
-1072.3201
31
0.0
62
255
0
ENDSEC
0
SECTION
2
OBJECTS
0
ENDSEC
0
EOF
