999
Example DXF output from Android DXFCanvas
0
SECTION
2
HEADER
0
ENDSEC
0
SECTION
2
CLASSES
0
ENDSEC
0
SECTION
2
TABLES
0
TABLE
2
STYLE
70
3
0
STYLE
2
5
3
times
70
0
0
STYLE
2
6
3
times
70
0
0
STYLE
2
7
3
times
70
0
0
ENDTAB
0
ENDSEC
0
SECTION
2
BLOCKS
0
ENDSEC
0
SECTION
2
ENTITIES
0
LINE
10
0.0
20
0.0
30
0.0
11
384.14008
21
-1522.3129
31
0.0
62
3
0
ELLIPSE
10
384.14008
20
-1522.3129
30
0.0
11
149.42921
21
13.07336
31
0.0
40
0.3333333079064402
41
2.6179937723087745
42
-1.0471979972637702
62
3
0
LINE
10
384.14008
20
-1522.3129
30
0.0
11
462.62863
21
-1558.9127
31
0.0
62
3
0
LINE
10
384.14008
20
-1522.3129
30
0.0
11
252.5517
21
-1508.7299
31
0.0
62
3
0
LINE
10
0.0
20
0.0
30
0.0
11
515.3566
21
-1483.04
31
0.0
62
3
0
ELLIPSE
10
515.3566
20
-1483.04
30
0.0
11
147.72116
21
26.047224
31
0.0
40
0.33333335874629855
41
2.6179941713306523
42
-1.0471969012522235
62
3
0
LINE
10
515.3566
20
-1483.04
30
0.0
11
596.7364
21
-1512.6598
31
0.0
62
3
0
LINE
10
515.3566
20
-1483.04
30
0.0
11
383.0851
21
-1480.9774
31
0.0
62
3
0
LINE
10
0.0
20
0.0
30
0.0
11
642.651
21
-1432.4803
31
0.0
62
3
0
ELLIPSE
10
642.651
20
-1432.4803
30
0.0
11
144.88889
21
38.822857
31
0.0
40
0.33333333333333337
41
2.6179951954789016
42
-1.0471967435293228
62
3
0
LINE
10
642.651
20
-1432.4803
30
0.0
11
726.3026
21
-1454.8947
31
0.0
62
3
0
LINE
10
642.651
20
-1432.4803
30
0.0
11
510.70306
21
-1441.9539
31
0.0
62
3
0
LINE
10
0.0
20
0.0
30
0.0
11
765.0544
21
-1371.0186
31
0.0
62
3
0
ELLIPSE
10
765.0544
20
-1371.0187
30
0.0
11
140.9539
21
51.303024
31
0.0
40
0.33333333188366315
41
2.617993635658321
42
-1.0471968271852088
62
3
0
LINE
10
765.0544
20
-1371.0187
30
0.0
11
850.3413
21
-1386.057
31
0.0
62
3
0
LINE
10
765.0544
20
-1371.0187
30
0.0
11
634.43427
21
-1391.956
31
0.0
62
3
0
LINE
10
0.0
20
0.0
30
0.0
11
881.63525
21
-1299.1227
31
0.0
62
3
0
ELLIPSE
10
881.63525
20
-1299.1227
30
0.0
11
135.94618
21
63.392742
31
0.0
40
0.3333333374336203
41
2.617992567882178
42
-1.047196817236319
62
3
0
LINE
10
881.63525
20
-1299.1227
30
0.0
11
967.90826
21
-1306.6705
31
0.0
62
3
0
LINE
10
881.63525
20
-1299.1227
30
0.0
11
753.337
21
-1331.3646
31
0.0
62
3
0
LINE
10
0.0
20
0.0
30
0.0
11
991.50635
21
-1217.3395
31
0.0
62
3
0
ELLIPSE
10
991.50635
20
-1217.3395
30
0.0
11
129.90382
21
75.0
31
0.0
40
0.33333334801610925
41
2.6179940226302576
42
-1.0471989078961654
62
3
0
LINE
10
991.50635
20
-1217.3395
30
0.0
11
1078.1089
21
-1217.3396
31
0.0
62
3
0
LINE
10
991.50635
20
-1217.3395
30
0.0
11
866.50635
21
-1260.6407
31
0.0
62
3
0
LINE
10
0.0
20
0.0
30
0.0
11
1093.8315
21
-1126.2917
31
0.0
62
3
0
ELLIPSE
10
1093.8315
20
-1126.2917
30
0.0
11
122.872826
21
86.03647
31
0.0
40
0.3333333215270292
41
2.6179928267183286
42
-1.0471981852704146
62
3
0
LINE
10
1093.8315
20
-1126.2917
30
0.0
11
1180.1045
21
-1118.7439
31
0.0
62
3
0
LINE
10
1093.8315
20
-1126.2917
30
0.0
11
973.0812
21
-1180.3226
31
0.0
62
3
0
LINE
10
0.0
20
0.0
30
0.0
11
1187.832
21
-1026.6722
31
0.0
62
3
0
ELLIPSE
10
1187.832
20
-1026.6722
30
0.0
11
114.90669
21
96.418144
31
0.0
40
0.33333333333333337
41
2.6179946490721124
42
-1.0471977475783874
62
3
0
LINE
10
1187.832
20
-1026.6722
30
0.0
11
1273.1188
21
-1011.6339
31
0.0
62
3
0
LINE
10
1187.832
20
-1026.6722
30
0.0
11
1072.2502
21
-1091.0217
31
0.0
62
3
0
LINE
10
0.0
20
0.0
30
0.0
11
189.0
21
-380.0
31
0.0
62
5
0
LWPOLYLINE
90
4
70
1
10
189.0
20
-380.0
30
0.0
10
814.0
20
-380.0
30
0.0
10
856.0
20
-520.0
30
0.0
10
231.0
20
-520.0
30
0.0
62
5
0
TEXT
1
Some 40-point blue text skewed at position 80, 450
7
5
10
215.0
20
-450.0
30
0.0
11
215.0
21
-450.0
31
0.0
40
40.0
50
0.0
51
-16.699245
62
5
0
LINE
10
0.0
20
0.0
30
0.0
11
80.0
21
-1014.0
31
0.0
62
5
0
LWPOLYLINE
90
4
70
1
10
80.0
20
-944.0
30
0.0
10
700.0
20
-1440.0
30
0.0
10
700.0
20
-1580.0
30
0.0
10
80.0
20
-1084.0
30
0.0
62
5
0
TEXT
1
Some 40-point blue text skewed at position 80, 950
7
6
10
80.0
20
-1014.0
30
0.0
11
80.0
21
-1014.0
31
0.0
40
40.0
50
-38.659813
51
-38.659813
62
5
0
LINE
10
100.0
20
-300.0
30
0.0
11
465.40796
21
-1202.1935
31
0.0
62
1
0
LWPOLYLINE
90
4
70
1
10
441.86206
20
-1130.5723
30
0.0
10
797.2511
20
-589.55975
30
0.0
10
844.3429
20
-732.80206
30
0.0
10
488.95383
20
-1273.8147
30
0.0
62
1
0
TEXT
1
Some 40-point red text translated (100,300), rotated -40, and skewed, at position 80, 950
7
7
10
465.40796
20
-1202.1935
30
0.0
11
465.40796
21
-1202.1935
31
0.0
40
40.0
50
56.69924
51
38.50065
62
1
0
ENDSEC
0
SECTION
2
OBJECTS
0
ENDSEC
0
EOF
