999
Example DXF output from Java DXFGraphics
0
SECTION
2
HEADER
9
$ACADVER
1
AC1021
9
$HANDSEED
5
4e20
0
ENDSEC
0
SECTION
2
CLASSES
0
ENDSEC
0
SECTION
2
TABLES
0
TABLE
2
VPORT
5
1
100
AcDbSymbolTable
70
1
0
VPORT
5
a
100
AcDbSymbolTableRecord
100
AcDbViewportTableRecord
2
*ACTIVE
40
1000
70
0
0
ENDTAB
0
TABLE
2
LTYPE
5
2
100
AcDbSymbolTable
70
2
0
LTYPE
5
b
100
AcDbSymbolTableRecord
100
AcDbLinetypeTableRecord
2
ByBlock
70
0
72
65
73
0
40
0
3

0
LTYPE
5
c
100
AcDbSymbolTableRecord
100
AcDbLinetypeTableRecord
2
ByLayer
70
0
72
65
73
0
40
0
3

0
ENDTAB
0
TABLE
2
LAYER
5
3
100
AcDbSymbolTable
70
1
0
LAYER
5
d
100
AcDbSymbolTableRecord
100
AcDbLayerTableRecord
2
0
70
0
390
1
0
ENDTAB
0
TABLE
2
STYLE
5
4
100
AcDbSymbolTable
70
0
0
ENDTAB
0
TABLE
2
VIEW
5
5
100
AcDbSymbolTable
70
0
0
ENDTAB
0
TABLE
2
UCS
5
6
100
AcDbSymbolTable
70
0
0
ENDTAB
0
TABLE
2
APPID
5
7
100
AcDbSymbolTable
70
1
0
APPID
5
e
100
AcDbSymbolTableRecord
100
AcDbRegAppTableRecord
2
ACAD
70
0
0
ENDTAB
0
TABLE
2
DIMSTYLE
5
8
100
AcDbSymbolTable
70
0
100
AcDbDimStyleTable
71
1
0
ENDTAB
0
TABLE
2
BLOCK_RECORD
5
9
100
AcDbSymbolTable
70
2
0
BLOCK_RECORD
5
f
100
AcDbSymbolTableRecord
100
AcDbBlockTableRecord
2
*Model_Space
70
0
280
1
281
0
0
BLOCK_RECORD
5
10
100
AcDbSymbolTableRecord
100
AcDbBlockTableRecord
2
*Paper_Space
70
0
280
1
281
0
0
ENDTAB
0
ENDSEC
0
SECTION
2
BLOCKS
0
BLOCK
5
11
100
AcDbEntity
100
AcDbBlockBegin
2
*Model_Space
70
0
10
0
20
0
30
0
3
*Model_Space
1

0
ENDBLK
5
12
100
AcDbEntity
100
AcDbBlockEnd
0
BLOCK
5
13
100
AcDbEntity
100
AcDbBlockBegin
2
*Paper_Space
70
0
10
0
20
0
30
0
3
*Paper_Space
1

0
ENDBLK
5
14
100
AcDbEntity
100
AcDbBlockEnd
0
ENDSEC
0
SECTION
2
ENTITIES
0
LINE
5
17
100
AcDbEntity
100
AcDbLine
10
0.0
20
-0.0
30
0.0
11
800.0
21
-800.0
31
0.0
370
35
62
0
0
ELLIPSE
5
18
100
AcDbEntity
100
AcDbEllipse
10
800.0
20
-800.0
30
0.0
11
50.0
21
-0.0
31
0.0
40
1.0
41
-6.123234262925839E-17
42
0.7853981852531433
370
35
62
0
0
ELLIPSE
5
19
100
AcDbEntity
100
AcDbEllipse
10
800.0
20
-800.0
30
0.0
11
100.0
21
-0.0
31
0.0
40
1.0
41
-6.123234262925839E-17
42
1.5707963705062866
370
35
62
0
0
ELLIPSE
5
1a
100
AcDbEntity
100
AcDbEllipse
10
800.0
20
-800.0
30
0.0
11
150.0
21
-0.0
31
0.0
40
1.0
41
3.9269907474517822
42
-6.123234262925839E-17
370
35
62
0
0
ELLIPSE
5
1b
100
AcDbEntity
100
AcDbEllipse
10
400.0
20
-400.0
30
0.0
11
50.0
21
-0.0
31
0.0
40
1.0
41
1.5707963705062866
42
2.356194496154785
370
35
62
1
0
ELLIPSE
5
1c
100
AcDbEntity
100
AcDbEllipse
10
400.0
20
-400.0
30
0.0
11
100.0
21
-0.0
31
0.0
40
1.0
41
1.5707963705062866
42
3.1415927410125732
370
35
62
1
0
ELLIPSE
5
1d
100
AcDbEntity
100
AcDbEllipse
10
400.0
20
-400.0
30
0.0
11
150.0
21
-0.0
31
0.0
40
1.0
41
-0.7853981852531433
42
1.5707963705062866
370
35
62
1
0
LINE
5
1e
100
AcDbEntity
100
AcDbLine
10
0.0
20
-0.0
30
0.0
11
1000.0
21
-500.0
31
0.0
370
100
62
1
0
LWPOLYLINE
5
1f
100
AcDbEntity
100
AcDbPolyline
90
4
70
1
10
1000.0
20
-500.0
30
0.0
10
1150.0
20
-500.0
30
0.0
10
1150.0
20
-650.0
30
0.0
10
1000.0
20
-650.0
30
0.0
370
100
62
1
0
LINE
5
20
100
AcDbEntity
100
AcDbLine
10
0.0
20
-0.0
30
0.0
11
20.0
21
-200.0
31
0.0
370
100
62
1
0
LINE
5
21
100
AcDbEntity
100
AcDbLine
10
30.0
20
-200.0
30
0.0
11
140.0
21
-200.0
31
0.0
370
100
62
1
0
ELLIPSE
5
22
100
AcDbEntity
100
AcDbEllipse
10
140.0
20
-205.0
30
0.0
11
10.0
21
-0.0
31
0.0
40
0.5
41
-2.4492937051703357E-16
42
1.5707963705062866
370
100
62
1
0
LINE
5
23
100
AcDbEntity
100
AcDbLine
10
150.0
20
-205.0
30
0.0
11
150.0
21
-295.0
31
0.0
370
100
62
1
0
ELLIPSE
5
24
100
AcDbEntity
100
AcDbEllipse
10
140.0
20
-295.0
30
0.0
11
10.0
21
-0.0
31
0.0
40
0.5
41
-1.5707963705062866
42
-2.4492937051703357E-16
370
100
62
1
0
LINE
5
25
100
AcDbEntity
100
AcDbLine
10
140.0
20
-300.0
30
0.0
11
30.0
21
-300.0
31
0.0
370
100
62
1
0
ELLIPSE
5
26
100
AcDbEntity
100
AcDbEllipse
10
30.0
20
-295.0
30
0.0
11
10.0
21
-0.0
31
0.0
40
0.5
41
3.1415927410125732
42
4.71238899230957
370
100
62
1
0
LINE
5
27
100
AcDbEntity
100
AcDbLine
10
20.0
20
-295.0
30
0.0
11
20.0
21
-205.0
31
0.0
370
100
62
1
0
ELLIPSE
5
28
100
AcDbEntity
100
AcDbEllipse
10
30.0
20
-205.0
30
0.0
11
10.0
21
-0.0
31
0.0
40
0.5
41
1.5707963705062866
42
3.1415927410125732
370
100
62
1
0
LINE
5
29
100
AcDbEntity
100
AcDbLine
10
0.0
20
-0.0
30
0.0
11
300.0
21
-1000.0
31
0.0
370
100
62
6
0
ELLIPSE
5
2a
100
AcDbEntity
100
AcDbEllipse
10
300.0
20
-1000.0
30
0.0
11
6.123233995736766E-15
21
-200.0
31
0.0
40
0.5
41
1.5707963705062866
42
7.8539814949035645
370
100
62
6
0
LWPOLYLINE
5
2b
100
AcDbEntity
100
AcDbPolyline
90
4
70
1
10
200.0
20
-800.0
30
0.0
10
400.0
20
-800.0
30
0.0
10
400.0
20
-1200.0
30
0.0
10
200.0
20
-1200.0
30
0.0
370
100
62
6
0
LINE
5
2c
100
AcDbEntity
100
AcDbLine
10
0.0
20
-0.0
30
0.0
11
300.0
21
-2000.0
31
0.0
370
35
62
6
0
ELLIPSE
5
2d
100
AcDbEntity
100
AcDbEllipse
10
300.0
20
-2000.0
30
0.0
11
200.0
21
-0.0
31
0.0
40
0.5
41
1.0471975803375244
42
3.665191411972046
370
35
62
6
0
LWPOLYLINE
5
2e
100
AcDbEntity
100
AcDbPolyline
90
4
70
1
10
100.0
20
-1900.0
30
0.0
10
500.0
20
-1900.0
30
0.0
10
500.0
20
-2100.0
30
0.0
10
100.0
20
-2100.0
30
0.0
370
35
62
6
0
SPLINE
5
2f
100
AcDbEntity
100
AcDbSpline
71
3
73
13
40
0
40
1
40
2
40
3
40
4
40
5
40
6
40
7
40
8
40
9
40
10
40
11
40
12
40
13
40
14
40
15
40
16
10
500.0
20
-1600.0
30
0.0
41
1
10
500.0
20
-1600.0
30
0.0
41
1
10
500.0
20
-1600.0
30
0.0
41
1
10
500.0
20
-1600.0
30
0.0
41
1
10
500.0
20
-1300.0
30
0.0
41
1
10
700.0
20
-1800.0
30
0.0
41
1
10
800.0
20
-1200.0
30
0.0
41
1
10
800.0
20
-1200.0
30
0.0
41
1
10
1000.0
20
-2000.0
30
0.0
41
1
10
500.0
20
-1200.0
30
0.0
41
1
10
500.0
20
-1200.0
30
0.0
41
1
10
500.0
20
-1200.0
30
0.0
41
1
10
500.0
20
-1200.0
30
0.0
41
1
370
35
62
6
0
SPLINE
5
30
100
AcDbEntity
100
AcDbSpline
71
2
73
11
40
0
40
1
40
2
40
3
40
4
40
5
40
6
40
7
40
8
40
9
40
10
40
11
40
12
40
13
10
1000.0
20
-1600.0
30
0.0
41
1
10
1000.0
20
-1600.0
30
0.0
41
1
10
1000.0
20
-1600.0
30
0.0
41
1
10
1000.0
20
-1300.0
30
0.0
41
1
10
1200.0
20
-1800.0
30
0.0
41
1
10
1300.0
20
-1200.0
30
0.0
41
1
10
1500.0
20
-2000.0
30
0.0
41
1
10
1000.0
20
-1200.0
30
0.0
41
1
10
1400.0
20
-1200.0
30
0.0
41
1
10
1400.0
20
-1200.0
30
0.0
41
1
10
1400.0
20
-1200.0
30
0.0
41
1
370
35
62
6
0
SPLINE
5
31
100
AcDbEntity
100
AcDbSpline
71
3
73
13
40
0
40
1
40
2
40
3
40
4
40
5
40
6
40
7
40
8
40
9
40
10
40
11
40
12
40
13
40
14
40
15
40
16
10
1000.0
20
-1600.0
30
0.0
41
1
10
1000.0
20
-1600.0
30
0.0
41
1
10
1000.0
20
-1600.0
30
0.0
41
1
10
1000.0
20
-1600.0
30
0.0
41
1
10
1000.0
20
-1300.0
30
0.0
41
1
10
1200.0
20
-1800.0
30
0.0
41
1
10
1300.0
20
-1200.0
30
0.0
41
1
10
1500.0
20
-2000.0
30
0.0
41
1
10
1000.0
20
-1200.0
30
0.0
41
1
10
1400.0
20
-1200.0
30
0.0
41
1
10
1400.0
20
-1200.0
30
0.0
41
1
10
1400.0
20
-1200.0
30
0.0
41
1
10
1400.0
20
-1200.0
30
0.0
41
1
370
35
62
6
0
SPLINE
5
32
100
AcDbEntity
100
AcDbSpline
71
4
73
15
40
0
40
1
40
2
40
3
40
4
40
5
40
6
40
7
40
8
40
9
40
10
40
11
40
12
40
13
40
14
40
15
40
16
40
17
40
18
40
19
10
1000.0
20
-1600.0
30
0.0
41
1
10
1000.0
20
-1600.0
30
0.0
41
1
10
1000.0
20
-1600.0
30
0.0
41
1
10
1000.0
20
-1600.0
30
0.0
41
1
10
1000.0
20
-1600.0
30
0.0
41
1
10
1000.0
20
-1300.0
30
0.0
41
1
10
1200.0
20
-1800.0
30
0.0
41
1
10
1300.0
20
-1200.0
30
0.0
41
1
10
1500.0
20
-2000.0
30
0.0
41
1
10
1000.0
20
-1200.0
30
0.0
41
1
10
1400.0
20
-1200.0
30
0.0
41
1
10
1400.0
20
-1200.0
30
0.0
41
1
10
1400.0
20
-1200.0
30
0.0
41
1
10
1400.0
20
-1200.0
30
0.0
41
1
10
1400.0
20
-1200.0
30
0.0
41
1
370
35
62
6
0
SPLINE
5
33
100
AcDbEntity
100
AcDbSpline
71
5
73
17
40
0
40
1
40
2
40
3
40
4
40
5
40
6
40
7
40
8
40
9
40
10
40
11
40
12
40
13
40
14
40
15
40
16
40
17
40
18
40
19
40
20
40
21
40
22
10
1000.0
20
-1600.0
30
0.0
41
1
10
1000.0
20
-1600.0
30
0.0
41
1
10
1000.0
20
-1600.0
30
0.0
41
1
10
1000.0
20
-1600.0
30
0.0
41
1
10
1000.0
20
-1600.0
30
0.0
41
1
10
1000.0
20
-1600.0
30
0.0
41
1
10
1000.0
20
-1300.0
30
0.0
41
1
10
1200.0
20
-1800.0
30
0.0
41
1
10
1300.0
20
-1200.0
30
0.0
41
1
10
1500.0
20
-2000.0
30
0.0
41
1
10
1000.0
20
-1200.0
30
0.0
41
1
10
1400.0
20
-1200.0
30
0.0
41
1
10
1400.0
20
-1200.0
30
0.0
41
1
10
1400.0
20
-1200.0
30
0.0
41
1
10
1400.0
20
-1200.0
30
0.0
41
1
10
1400.0
20
-1200.0
30
0.0
41
1
10
1400.0
20
-1200.0
30
0.0
41
1
370
35
62
6
0
ENDSEC
0
SECTION
2
OBJECTS
0
DICTIONARY
5
15
330
0
100
AcDbDictionary
281
1
3
ACAD_GROUP
350
16
0
DICTIONARY
5
16
330
15
100
AcDbDictionary
281
1
0
ENDSEC
0
EOF
