999
Example DXF output from Java DXFGraphics
0
SECTION
2
HEADER
9
$ACADVER
1
AC1021
9
$HANDSEED
5
4e20
0
ENDSEC
0
SECTION
2
CLASSES
0
ENDSEC
0
SECTION
2
TABLES
0
TABLE
2
VPORT
5
34
100
AcDbSymbolTable
70
1
0
VPORT
5
3d
100
AcDbSymbolTableRecord
100
AcDbViewportTableRecord
2
*ACTIVE
40
1000
70
0
0
ENDTAB
0
TABLE
2
LTYPE
5
35
100
AcDbSymbolTable
70
2
0
LTYPE
5
3e
100
AcDbSymbolTableRecord
100
AcDbLinetypeTableRecord
2
ByBlock
70
0
72
65
73
0
40
0
3

0
LTYPE
5
3f
100
AcDbSymbolTableRecord
100
AcDbLinetypeTableRecord
2
ByLayer
70
0
72
65
73
0
40
0
3

0
ENDTAB
0
TABLE
2
LAYER
5
36
100
AcDbSymbolTable
70
1
0
LAYER
5
40
100
AcDbSymbolTableRecord
100
AcDbLayerTableRecord
2
0
70
0
390
1
0
ENDTAB
0
TABLE
2
STYLE
5
37
100
AcDbSymbolTable
70
0
0
ENDTAB
0
TABLE
2
VIEW
5
38
100
AcDbSymbolTable
70
0
0
ENDTAB
0
TABLE
2
UCS
5
39
100
AcDbSymbolTable
70
0
0
ENDTAB
0
TABLE
2
APPID
5
3a
100
AcDbSymbolTable
70
1
0
APPID
5
41
100
AcDbSymbolTableRecord
100
AcDbRegAppTableRecord
2
ACAD
70
0
0
ENDTAB
0
TABLE
2
DIMSTYLE
5
3b
100
AcDbSymbolTable
70
0
100
AcDbDimStyleTable
71
1
0
ENDTAB
0
TABLE
2
BLOCK_RECORD
5
3c
100
AcDbSymbolTable
70
2
0
BLOCK_RECORD
5
42
100
AcDbSymbolTableRecord
100
AcDbBlockTableRecord
2
*Model_Space
70
0
280
1
281
0
0
BLOCK_RECORD
5
43
100
AcDbSymbolTableRecord
100
AcDbBlockTableRecord
2
*Paper_Space
70
0
280
1
281
0
0
ENDTAB
0
ENDSEC
0
SECTION
2
BLOCKS
0
BLOCK
5
44
100
AcDbEntity
100
AcDbBlockBegin
2
*Model_Space
70
0
10
0
20
0
30
0
3
*Model_Space
1

0
ENDBLK
5
45
100
AcDbEntity
100
AcDbBlockEnd
0
BLOCK
5
46
100
AcDbEntity
100
AcDbBlockBegin
2
*Paper_Space
70
0
10
0
20
0
30
0
3
*Paper_Space
1

0
ENDBLK
5
47
100
AcDbEntity
100
AcDbBlockEnd
0
ENDSEC
0
SECTION
2
ENTITIES
0
LINE
5
4a
100
AcDbEntity
100
AcDbLine
10
0.0
20
-0.0
30
0.0
11
-1415.4170793620578
21
-679.4074561337852
31
0.0
370
35
62
3
0
ELLIPSE
5
4b
100
AcDbEntity
100
AcDbEllipse
10
-1415.4170793620578
20
-679.4074561337852
30
0.0
11
42.549327819483935
21
-143.83864119947077
31
0.0
40
0.33333333333333337
41
1.0471975803375244
42
3.665191411972046
370
35
62
3
0
LINE
5
4c
100
AcDbEntity
100
AcDbLine
10
-0.0
20
0.0
30
0.0
11
-1053.0006041476363
21
1164.5555923461588
31
0.0
370
35
62
3
0
ELLIPSE
5
4d
100
AcDbEntity
100
AcDbEllipse
10
-1053.0006041476363
20
1164.5555923461588
30
0.0
11
-125.86072936146786
21
-81.60316663340546
31
0.0
40
0.33333333333333326
41
1.0471975803375244
42
3.665191411972046
370
35
62
3
0
LINE
5
4e
100
AcDbEntity
100
AcDbLine
10
0.0
20
0.0
30
0.0
11
818.024174028826
21
1340.088224970452
31
0.0
370
35
62
3
0
ELLIPSE
5
4f
100
AcDbEntity
100
AcDbEllipse
10
818.024174028826
20
1340.088224970452
30
0.0
11
-113.95318692882319
21
97.54317602356754
31
0.0
40
0.3333333333333333
41
1.0471975803375244
42
3.665191411972046
370
35
62
3
0
LINE
5
50
100
AcDbEntity
100
AcDbLine
10
0.0
20
0.0
30
0.0
11
1517.0856540811708
21
-404.2908831288508
31
0.0
370
35
62
3
0
ELLIPSE
5
51
100
AcDbEntity
100
AcDbEllipse
10
1517.0856540811708
20
-404.2908831288508
30
0.0
11
61.21230927200881
21
136.94178760914414
31
0.0
40
0.3333333333333333
41
1.0471975803375244
42
3.665191411972046
370
35
62
3
0
LINE
5
52
100
AcDbEntity
100
AcDbLine
10
0.0
20
-0.0
30
0.0
11
42.65549031431996
21
-1569.4522959128271
31
0.0
370
35
62
3
0
ELLIPSE
5
53
100
AcDbEntity
100
AcDbEllipse
10
42.65549031431996
20
-1569.4522959128271
30
0.0
11
148.68042177952103
21
-19.852762514665976
31
0.0
40
0.33333333333333326
41
1.0471975803375244
42
3.665191411972046
370
35
62
3
0
LINE
5
54
100
AcDbEntity
100
AcDbLine
10
0.0
20
-0.0
30
0.0
11
-1492.8861548720397
21
-486.0976533489704
31
0.0
370
35
62
3
0
ELLIPSE
5
55
100
AcDbEntity
100
AcDbEllipse
10
-1492.8861548720397
20
-486.0976533489704
30
0.0
11
23.13771748313758
21
-148.20474361392925
31
0.0
40
0.3333333333333333
41
1.0471975803375244
42
3.665191411972046
370
35
62
3
0
LINE
5
56
100
AcDbEntity
100
AcDbLine
10
-0.0
20
0.0
30
0.0
11
-889.6061889919104
21
1293.6772505177976
31
0.0
370
35
62
3
0
ELLIPSE
5
57
100
AcDbEntity
100
AcDbEllipse
10
-889.6061889919104
20
1293.6772505177976
30
0.0
11
-135.553830763726
21
-64.22740042442261
31
0.0
40
0.33333333333333326
41
1.0471975803375244
42
3.665191411972046
370
35
62
3
0
LINE
5
58
100
AcDbEntity
100
AcDbLine
10
0.0
20
0.0
30
0.0
11
988.1908833299252
21
1220.0322856808427
31
0.0
370
35
62
3
0
ELLIPSE
5
59
100
AcDbEntity
100
AcDbEllipse
10
988.1908833299252
20
1220.0322856808427
30
0.0
11
-100.04070924783923
21
111.76697407190233
31
0.0
40
0.33333333333333337
41
1.0471975803375244
42
3.665191411972046
370
35
62
3
0
LINE
5
5a
100
AcDbEntity
100
AcDbLine
10
0.0
20
-0.0
30
0.0
11
200.0
21
-200.0
31
0.0
370
35
62
5
0
ELLIPSE
5
5b
100
AcDbEntity
100
AcDbEllipse
10
200.0
20
-200.0
30
0.0
11
100.0
21
-0.0
31
0.0
40
1.0
41
0.7853981852531433
42
3.1415927410125732
370
35
62
5
0
LINE
5
5c
100
AcDbEntity
100
AcDbLine
10
0.0
20
-0.0
30
0.0
11
240.00000059604645
21
-200.0
31
0.0
370
35
62
5
0
ELLIPSE
5
5d
100
AcDbEntity
100
AcDbEllipse
10
240.00000059604645
20
-200.0
30
0.0
11
81.92958292330648
21
-74.14525340468666
31
0.0
40
0.819002485148878
41
1.6206306219100952
42
3.97682523727417
370
35
62
5
0
LINE
5
5e
100
AcDbEntity
100
AcDbLine
10
0.0
20
-0.0
30
0.0
11
280.0000011920929
21
-200.0
31
0.0
370
35
62
5
0
ELLIPSE
5
5f
100
AcDbEntity
100
AcDbEllipse
10
280.0000011920929
20
-200.0
30
0.0
11
94.33257660054825
21
-77.33421422462841
31
0.0
40
0.6720784349844694
41
1.6694941520690918
42
4.025688648223877
370
35
62
5
0
LINE
5
60
100
AcDbEntity
100
AcDbLine
10
0.0
20
-0.0
30
0.0
11
320.00000178813934
21
-200.0
31
0.0
370
35
62
5
0
ELLIPSE
5
61
100
AcDbEntity
100
AcDbEllipse
10
320.00000178813934
20
-200.0
30
0.0
11
107.83062928763935
21
-80.22929295134719
31
0.0
40
0.5535816047246965
41
1.7165247201919556
42
4.072719097137451
370
35
62
5
0
LINE
5
62
100
AcDbEntity
100
AcDbLine
10
0.0
20
-0.0
30
0.0
11
360.0000023841858
21
-200.0
31
0.0
370
35
62
5
0
ELLIPSE
5
63
100
AcDbEntity
100
AcDbEllipse
10
360.0000023841858
20
-200.0
30
0.0
11
122.30826025767695
21
-82.80672319096212
31
0.0
40
0.45837362578506047
41
1.761049509048462
42
4.117244243621826
370
35
62
5
0
LINE
5
64
100
AcDbEntity
100
AcDbLine
10
0.0
20
-0.0
30
0.0
11
400.00000298023224
21
-200.0
31
0.0
370
35
62
5
0
ELLIPSE
5
65
100
AcDbEntity
100
AcDbEllipse
10
400.00000298023224
20
-200.0
30
0.0
11
137.63819321785223
21
-85.06508099188407
31
0.0
40
0.3819660061592608
41
1.8026201725006104
42
4.158814430236816
370
35
62
5
0
LINE
5
66
100
AcDbEntity
100
AcDbLine
10
0.0
20
-0.0
30
0.0
11
440.0000035762787
21
-200.0
31
0.0
370
35
62
5
0
ELLIPSE
5
67
100
AcDbEntity
100
AcDbEllipse
10
440.0000035762787
20
-200.0
30
0.0
11
153.6938717731203
21
-87.019990837299
31
0.0
40
0.32057154032175045
41
1.8410060405731201
42
4.197200775146484
370
35
62
5
0
LINE
5
68
100
AcDbEntity
100
AcDbLine
10
0.0
20
-0.0
30
0.0
11
480.00000417232513
21
-200.0
31
0.0
370
35
62
5
0
ELLIPSE
5
69
100
AcDbEntity
100
AcDbEllipse
10
480.00000417232513
20
-200.0
30
0.0
11
170.35805452631246
21
-88.69786778999817
31
0.0
40
0.2710822091643484
41
1.8761593103408813
42
4.232353687286377
370
35
62
5
0
LINE
5
6a
100
AcDbEntity
100
AcDbLine
10
0.0
20
-0.0
30
0.0
11
100.0
21
-100.0
31
0.0
370
35
62
4
0
LWPOLYLINE
5
6b
100
AcDbEntity
100
AcDbPolyline
90
4
70
1
10
100.0
20
-100.0
30
0.0
10
300.0
20
-100.0
30
0.0
10
300.0
20
-300.0
30
0.0
10
100.0
20
-300.0
30
0.0
370
35
62
4
0
LINE
5
6c
100
AcDbEntity
100
AcDbLine
10
0.0
20
-0.0
30
0.0
11
110.00000014901161
21
-120.00000029802322
31
0.0
370
35
62
4
0
LWPOLYLINE
5
6d
100
AcDbEntity
100
AcDbPolyline
90
4
70
1
10
110.00000014901161
20
-120.00000029802322
30
0.0
10
310.0000001490116
20
-160.00000089406967
30
0.0
10
330.00000044703484
20
-360.0000008940697
30
0.0
10
130.00000044703484
20
-320.0000002980232
30
0.0
370
35
62
4
0
LINE
5
6e
100
AcDbEntity
100
AcDbLine
10
0.0
20
-0.0
30
0.0
11
122.00000035762785
21
-142.0000006556511
31
0.0
370
35
62
4
0
LWPOLYLINE
5
6f
100
AcDbEntity
100
AcDbPolyline
90
4
70
1
10
122.00000035762785
20
-142.0000006556511
30
0.0
10
326.0000004768371
20
-222.000001847744
30
0.0
10
366.00000107288355
20
-426.0000019669532
30
0.0
10
162.00000095367432
20
-346.0000007748603
30
0.0
370
35
62
4
0
LINE
5
70
100
AcDbEntity
100
AcDbLine
10
0.0
20
-0.0
30
0.0
11
136.20000063478943
21
-166.400001090765
31
0.0
370
35
62
4
0
LWPOLYLINE
5
71
100
AcDbEntity
100
AcDbPolyline
90
4
70
1
10
136.20000063478943
20
-166.400001090765
30
0.0
10
348.20000099241724
20
-287.2000029146671
30
0.0
10
408.60000190436836
20
-499.2000032722949
30
0.0
10
196.6000015467405
20
-378.4000014483928
30
0.0
370
35
62
4
0
LINE
5
72
100
AcDbEntity
100
AcDbLine
10
0.0
20
-0.0
30
0.0
11
152.84000099182128
21
-193.6400016236305
31
0.0
370
35
62
4
0
LWPOLYLINE
5
73
100
AcDbEntity
100
AcDbPolyline
90
4
70
1
10
152.84000099182128
20
-193.6400016236305
30
0.0
10
376.9200017118454
20
-356.84000415086746
30
0.0
10
458.52000297546385
20
-580.9200048708915
30
0.0
10
234.44000225543974
20
-417.72000234365464
30
0.0
370
35
62
4
0
LINE
5
74
100
AcDbEntity
100
AcDbLine
10
0.0
20
-0.0
30
0.0
11
172.2040014427304
21
-224.20800227749345
31
0.0
370
35
62
4
0
LWPOLYLINE
5
75
100
AcDbEntity
100
AcDbPolyline
90
4
70
1
10
172.2040014427304
20
-224.20800227749345
30
0.0
10
412.6040026586651
20
-432.2240056165456
30
0.0
10
516.6120043281912
20
-672.6240068324803
30
0.0
10
276.21200311225647
20
-464.60800349342816
30
0.0
370
35
62
4
0
LINE
5
76
100
AcDbEntity
100
AcDbLine
10
0.0
20
-0.0
30
0.0
11
194.62480200457568
21
-258.6488030792474
31
0.0
370
35
62
4
0
LWPOLYLINE
5
77
100
AcDbEntity
100
AcDbPolyline
90
4
70
1
10
194.62480200457568
20
-258.6488030792474
30
0.0
10
455.8264038643836
20
-514.7448073779343
30
0.0
10
583.8744060137271
20
-775.9464092377423
30
0.0
10
322.6728041539192
20
-519.8504049390554
30
0.0
370
35
62
4
0
LINE
5
78
100
AcDbEntity
100
AcDbLine
10
0.0
20
-0.0
30
0.0
11
220.4896826979172
21
-297.5737640601897
31
0.0
370
35
62
4
0
LWPOLYLINE
5
79
100
AcDbEntity
100
AcDbPolyline
90
4
70
1
10
220.4896826979172
20
-297.5737640601897
30
0.0
10
507.30088536920664
20
-605.9100895092797
30
0.0
10
661.4690480937516
20
-892.7212921805691
30
0.0
10
374.6578454224622
20
-584.3849667314792
30
0.0
370
35
62
4
0
LINE
5
7a
100
AcDbEntity
100
AcDbLine
10
0.0
20
-0.0
30
0.0
11
500.0
21
-200.0
31
0.0
370
35
62
1
0
ELLIPSE
5
7b
100
AcDbEntity
100
AcDbEllipse
10
500.0
20
-200.0
30
0.0
11
50.0
21
-0.0
31
0.0
40
1.0
41
-0.7853981852531433
42
1.5707963705062866
370
35
62
1
0
LINE
5
7c
100
AcDbEntity
100
AcDbLine
10
0.0
20
-0.0
30
0.0
11
200.0
21
-500.0
31
0.0
370
35
62
1
0
ELLIPSE
5
7d
100
AcDbEntity
100
AcDbEllipse
10
200.0
20
-500.0
30
0.0
11
50.0
21
-0.0
31
0.0
40
1.0
41
0.3490658402442932
42
1.3962633609771729
370
35
62
1
0
LINE
5
7e
100
AcDbEntity
100
AcDbLine
10
0.0
20
0.0
30
0.0
11
550.000011920929
21
240.00000953674316
31
0.0
370
35
62
1
0
ELLIPSE
5
7f
100
AcDbEntity
100
AcDbEllipse
10
550.000011920929
20
240.00000953674316
30
0.0
11
3.3677787706498588E-15
21
60.00000238418579
31
0.0
40
0.9166666501098215
41
3.1415927410125732
42
-0.7853981852531433
370
35
62
1
0
LINE
5
80
100
AcDbEntity
100
AcDbLine
10
0.0
20
0.0
30
0.0
11
220.00000476837158
21
600.0000238418579
31
0.0
370
35
62
1
0
ELLIPSE
5
81
100
AcDbEntity
100
AcDbEllipse
10
220.00000476837158
20
600.0000238418579
30
0.0
11
3.3677787706498588E-15
21
60.00000238418579
31
0.0
40
0.9166666501098215
41
3.3161256313323975
42
4.363323211669922
370
35
62
1
0
LINE
5
82
100
AcDbEntity
100
AcDbLine
10
0.0
20
-0.0
30
0.0
11
605.0000262260439
21
-288.00002288818405
31
0.0
370
35
62
1
0
ELLIPSE
5
83
100
AcDbEntity
100
AcDbEllipse
10
605.0000262260439
20
-288.00002288818405
30
0.0
11
3.7045567280089476E-15
21
-72.00000572204601
31
0.0
40
0.840277747423562
41
0.7853981852531433
42
3.1415927410125732
370
35
62
1
0
LINE
5
84
100
AcDbEntity
100
AcDbLine
10
0.0
20
-0.0
30
0.0
11
242.0000104904176
21
-720.0000572204601
31
0.0
370
35
62
1
0
ELLIPSE
5
85
100
AcDbEntity
100
AcDbEllipse
10
242.0000104904176
20
-720.0000572204601
30
0.0
11
3.7045567280089476E-15
21
-72.00000572204601
31
0.0
40
0.840277747423562
41
1.919862151145935
42
2.96705961227417
370
35
62
1
0
LINE
5
86
100
AcDbEntity
100
AcDbLine
10
0.0
20
0.0
30
0.0
11
665.5000432729731
21
345.60004119873213
31
0.0
370
35
62
1
0
ELLIPSE
5
87
100
AcDbEntity
100
AcDbEllipse
10
665.5000432729731
20
345.60004119873213
30
0.0
11
4.075012489133357E-15
21
86.40001029968303
31
0.0
40
0.7702545878925833
41
3.1415927410125732
42
-0.7853981852531433
370
35
62
1
0
LINE
5
88
100
AcDbEntity
100
AcDbLine
10
0.0
20
0.0
30
0.0
11
266.2000173091892
21
864.0001029968303
31
0.0
370
35
62
1
0
ELLIPSE
5
89
100
AcDbEntity
100
AcDbEllipse
10
266.2000173091892
20
864.0001029968303
30
0.0
11
4.075012489133357E-15
21
86.40001029968303
31
0.0
40
0.7702545878925833
41
3.3161256313323975
42
4.363323211669922
370
35
62
1
0
LINE
5
8a
100
AcDbEntity
100
AcDbLine
10
0.0
20
-0.0
30
0.0
11
732.0500634670278
21
-414.72006591797265
31
0.0
370
35
62
1
0
ELLIPSE
5
8b
100
AcDbEntity
100
AcDbEllipse
10
732.0500634670278
20
-414.72006591797265
30
0.0
11
4.4825138352025626E-15
21
-103.68001647949316
31
0.0
40
0.7060666928152156
41
0.7853981852531433
42
3.1415927410125732
370
35
62
1
0
LINE
5
8c
100
AcDbEntity
100
AcDbLine
10
0.0
20
-0.0
30
0.0
11
292.82002538681115
21
-1036.8001647949316
31
0.0
370
35
62
1
0
ELLIPSE
5
8d
100
AcDbEntity
100
AcDbEllipse
10
292.82002538681115
20
-1036.8001647949316
30
0.0
11
4.4825138352025626E-15
21
-103.68001647949316
31
0.0
40
0.7060666928152156
41
1.919862151145935
42
2.96705961227417
370
35
62
1
0
LINE
5
8e
100
AcDbEntity
100
AcDbLine
10
0.0
20
0.0
30
0.0
11
805.2550872671642
21
497.664098876961
31
0.0
370
35
62
1
0
ELLIPSE
5
8f
100
AcDbEntity
100
AcDbEllipse
10
805.2550872671642
20
497.664098876961
30
0.0
11
4.930765325594276E-15
21
124.41602471924026
31
0.0
40
0.647227790057044
41
3.1415927410125732
42
-0.7853981852531433
370
35
62
1
0
LINE
5
90
100
AcDbEntity
100
AcDbLine
10
0.0
20
0.0
30
0.0
11
322.1020349068657
21
1244.1602471924025
31
0.0
370
35
62
1
0
ELLIPSE
5
91
100
AcDbEntity
100
AcDbEllipse
10
322.1020349068657
20
1244.1602471924025
30
0.0
11
4.930765325594276E-15
21
124.41602471924026
31
0.0
40
0.647227790057044
41
3.3161256313323975
42
4.363323211669922
370
35
62
1
0
LINE
5
92
100
AcDbEntity
100
AcDbLine
10
0.0
20
-0.0
30
0.0
11
885.780615192658
21
-597.1969423828266
31
0.0
370
35
62
1
0
ELLIPSE
5
93
100
AcDbEntity
100
AcDbEllipse
10
885.780615192658
20
-597.1969423828266
30
0.0
11
5.4238419757123105E-15
21
-149.29923559570665
31
0.0
40
0.5932921301695735
41
0.7853981852531433
42
3.1415927410125732
370
35
62
1
0
LINE
5
94
100
AcDbEntity
100
AcDbLine
10
0.0
20
-0.0
30
0.0
11
354.3122460770632
21
-1492.9923559570666
31
0.0
370
35
62
1
0
ELLIPSE
5
95
100
AcDbEntity
100
AcDbEllipse
10
354.3122460770632
20
-1492.9923559570666
30
0.0
11
5.4238419757123105E-15
21
-149.29923559570665
31
0.0
40
0.5932921301695735
41
1.919862151145935
42
2.96705961227417
370
35
62
1
0
LINE
5
96
100
AcDbEntity
100
AcDbLine
10
0.0
20
0.0
30
0.0
11
974.3586978305793
21
716.6363593359613
31
0.0
370
35
62
1
0
ELLIPSE
5
97
100
AcDbEntity
100
AcDbEllipse
10
974.3586978305793
20
716.6363593359613
30
0.0
11
5.966226302598011E-15
21
179.15908983399032
31
0.0
40
0.543851109499063
41
3.1415927410125732
42
-0.7853981852531433
370
35
62
1
0
LINE
5
98
100
AcDbEntity
100
AcDbLine
10
0.0
20
0.0
30
0.0
11
389.74347913223176
21
1791.590898339903
31
0.0
370
35
62
1
0
ELLIPSE
5
99
100
AcDbEntity
100
AcDbEllipse
10
389.74347913223176
20
1791.590898339903
30
0.0
11
5.966226302598011E-15
21
179.15908983399032
31
0.0
40
0.543851109499063
41
3.3161256313323975
42
4.363323211669922
370
35
62
1
0
LINE
5
9a
100
AcDbEntity
100
AcDbLine
10
0.0
20
-0.0
30
0.0
11
700.0
21
350.0
31
0.0
370
35
62
6
0
ELLIPSE
5
9b
100
AcDbEntity
100
AcDbEllipse
10
700.0
20
350.0
30
0.0
11
100.0
21
-0.0
31
0.0
40
1.0
41
3.9269907474517822
42
3.1415927410125732
370
35
62
6
0
LINE
5
9c
100
AcDbEntity
100
AcDbLine
10
200.0
20
-100.0
30
0.0
11
900.0
21
250.0
31
0.0
370
35
62
6
0
ELLIPSE
5
9d
100
AcDbEntity
100
AcDbEllipse
10
900.0
20
250.0
30
0.0
11
100.0
21
-0.0
31
0.0
40
1.0
41
3.9269907474517822
42
3.1415927410125732
370
35
62
6
0
LINE
5
9e
100
AcDbEntity
100
AcDbLine
10
400.0
20
-200.0
30
0.0
11
1100.0
21
150.0
31
0.0
370
35
62
6
0
ELLIPSE
5
9f
100
AcDbEntity
100
AcDbEllipse
10
1100.0
20
150.0
30
0.0
11
100.0
21
-0.0
31
0.0
40
1.0
41
3.9269907474517822
42
3.1415927410125732
370
35
62
6
0
LINE
5
a0
100
AcDbEntity
100
AcDbLine
10
600.0
20
-300.0
30
0.0
11
1300.0
21
50.0
31
0.0
370
35
62
6
0
ELLIPSE
5
a1
100
AcDbEntity
100
AcDbEllipse
10
1300.0
20
50.0
30
0.0
11
100.0
21
-0.0
31
0.0
40
1.0
41
3.9269907474517822
42
3.1415927410125732
370
35
62
6
0
LINE
5
a2
100
AcDbEntity
100
AcDbLine
10
800.0
20
-400.0
30
0.0
11
1500.0
21
-50.0
31
0.0
370
35
62
6
0
ELLIPSE
5
a3
100
AcDbEntity
100
AcDbEllipse
10
1500.0
20
-50.0
30
0.0
11
100.0
21
-0.0
31
0.0
40
1.0
41
3.9269907474517822
42
3.1415927410125732
370
35
62
6
0
LINE
5
a4
100
AcDbEntity
100
AcDbLine
10
1000.0
20
-500.0
30
0.0
11
1700.0
21
-150.0
31
0.0
370
35
62
6
0
ELLIPSE
5
a5
100
AcDbEntity
100
AcDbEllipse
10
1700.0
20
-150.0
30
0.0
11
100.0
21
-0.0
31
0.0
40
1.0
41
3.9269907474517822
42
3.1415927410125732
370
35
62
6
0
LINE
5
a6
100
AcDbEntity
100
AcDbLine
10
1200.0
20
-600.0
30
0.0
11
1900.0
21
-250.0
31
0.0
370
35
62
6
0
ELLIPSE
5
a7
100
AcDbEntity
100
AcDbEllipse
10
1900.0
20
-250.0
30
0.0
11
100.0
21
-0.0
31
0.0
40
1.0
41
3.9269907474517822
42
3.1415927410125732
370
35
62
6
0
LINE
5
a8
100
AcDbEntity
100
AcDbLine
10
1400.0
20
-700.0
30
0.0
11
2100.0
21
-350.0
31
0.0
370
35
62
6
0
ELLIPSE
5
a9
100
AcDbEntity
100
AcDbEllipse
10
2100.0
20
-350.0
30
0.0
11
100.0
21
-0.0
31
0.0
40
1.0
41
3.9269907474517822
42
3.1415927410125732
370
35
62
6
0
LINE
5
aa
100
AcDbEntity
100
AcDbLine
10
100.0
20
-300.0
30
0.0
11
990.0562081654579
21
94.05069209098866
31
0.0
370
35
62
0
0
LWPOLYLINE
5
ab
100
AcDbEntity
100
AcDbPolyline
90
4
70
1
10
919.2240209273718
20
68.22819657963754
30
0.0
10
367.13136934669706
20
406.14787168018984
30
0.0
10
508.795743822869
20
457.7928627028921
30
0.0
10
1060.8883954035437
20
119.87318760233978
30
0.0
370
35
62
0
0
ELLIPSE
5
ac
100
AcDbEntity
100
AcDbEllipse
10
714.0098823751205
20
263.01052964126484
30
0.0
11
-283.4963583897062
21
163.26550794133266
31
0.0
40
0.17842424761967146
41
-0.9341793656349182
42
3.778209686279297
370
35
62
0
0
ENDSEC
0
SECTION
2
OBJECTS
0
DICTIONARY
5
48
330
0
100
AcDbDictionary
281
1
3
ACAD_GROUP
350
49
0
DICTIONARY
5
49
330
48
100
AcDbDictionary
281
1
0
ENDSEC
0
EOF
